PJ's Guitar Chords & Lyrics - Free download of guitar tablature for 1-2-3-4 by Plain White Ts
|  Guitar Chords Home Page >  Pop Guitar Songs|

Plain White Ts guitar chords  - 1-2-3-4   






 
*****  PJs Guitar Chords & Lyrics  -  http://www.guitarsongs.info  *****
1-2-3-4   PLAIN WHITE T'S
D   A   Bm   A   G   Gm   D
D
Give me more lovin then I've ever had.
A
make it all better when I'm feelin sad.
Bm	                                      A
Tell me that I'm special even when I know I'm not.
D
Make me feel good when I hurt so bad.
A
Barely gettin mad,
 	       Bm
I'm so glad I found you.
 	       A
I love bein around you.
 	     G  Gm           A
you make it easy, as easy as 1 2,(1 2 3 4.)
Chorus:
 	     D	       A       Bm   	  A	  G  Gm
Theres only one thing two do three words four you.
   D
I love you.
(I love you)
 	D	     A	           Bm
Theres only one way two say those three words
      A	              G   Gm
And that's what I'll do.
   D
I love you.
(I love you)
D
Give me more lovin from the very start.
A
Piece me back together when I fall apart.
Bm	                                          A
Tell me things you never even tell your closest friends.
D
Make me feel good when I hurt so bad.
A	                              Bm
Best that I've had I'm so glad that I found you.
              A
I love bein around you.
 	     G	Gm          A
You make it easy as easy as 1 2,(1 2 3 4.)
Chorus:
 	     D	       A       Bm         A	  G   Gm
Theres only one thing two do three words four you.
        D
I love you.
 
             D	     A	           Bm
Theres only one way two say those three words
      A	             G   Gm
and that's what I'll do.
        D    G  Gm   D
I love you.  I love you
Solo over:   D  A  Bm  A (x2
------------------------------------------------------------------------------|
-6/7--7-7-7--------7-7---6/7--7-7-7---------7-7--6/7--7-7-7-------7-7---------|
------------9-7-9--------------------9-7-9------------------9-7-9-----7-9-8---|
----------------------------------------------------------------------------7-|
------------------------------------------------------------------------------|
------------------------------------------------------------------------------|
------------------------------------------------------------------------------|
-6/7--7-7-7--------7-7---6/7--7-7-7---------10-8-7---7----5-------------------|
------------9-7-9--------------------7-------------9----7---7-6---------------|
----------------------------------------------------------------7-------------|
------------------------------------------------------------------------------|
------------------------------------------------------------------------------|
 	     G	Gm            A
You make it easy, its easy as 1 2,(1 2 3 4.)

             D	       A      Bm          A      G  Gm
Theres only one thing two do three words four you
 	D
I love you
             D       A             Bm
Theres only one way two say those three words
  A	        G    Gm
Thats what I'll do	 
        D
I love you
D   A   Bm   A   G   Gm      D
                     I love you
                 G   Gm      D
                     I love you



*****************************************************************************************
The above is solely MY INTERPRETATION of this great song, in a format aimed at learning guitarists.
No attempt has been made to copy or reproduce the artist's or publisher's sheet music for the song, 
if such exists.
It can be used for INFORMATIONAL PURPOSES ONLY. To play the song as it should be played, you should 
purchase the official sheetmusic for the song. You should also purchase and listen to the song to learn 
the rhythm and timing of the song - this is essential if you wish to play the song with any degree of accuracy
*****************************************************************************************









 

   

 
 

 

   

                

Share on Facebook

 

   

Plain White Ts guitar chords ;- 1-2-3-4

                

 

 

 

 

 

 

 

Site Meter