PJs Guitar Chords and Lyrics - Over the Hills and Far Away Led Zeppelin Guitar Song Chords

|  Guitar Chords Home Page >  Rock Songs Guitar Songs |

Guitar Chords for Over the Hills and Far Away Led Zeppelin    

*****  PJs Guitar Chords & Lyrics  -  http://www.guitarsongs.info  *****



Over the Hills and Far Away        Led Zeppelin
Jimmy Page and Robert Plant

Led Zeppelin
Houses of the Holy
1973



I always thought this was mostly electric, and it is
but the acoustic still sits back ther behind it all
and so I've tabbed it.  I actually learned it from a
tab by Matthew M. Holladay and Gary Chapman, which
was really good, but this is upgrade version 2.0.
Hope you enjoy it!

Lyrics
Chords


------------------------------------------------------------------------
INTRO FIGURE:

                         G
   +   +   +       +     +   +   +   +     +   +   +       +
e:---------------------|---------3-----3-|---3-3-------------------|
B:---------------------|---------3-----3-|---3-3-------------------|
G:---------0h2p0-------|-0-------0-----0-|---0-0---0h2p0---------0-|
D:-----------------4p0-|---------0-----0-|---0-0-----------4-------|
A:---------------------|---------2-----2-|---2-2-------------------|
E:---------------------|---------3-----3-|---3-3-------------------|


           D                                   G
   +       +   +   +     +   +   +       +     +   +   +   +
e:-----------------2---|---2-2-2-------------|---------3-----3-|
B:-----------------3---|---3-3-3-------------|---------3-----3-|
G:-4p2p0-----------2---|---2-2-2-0h2p0-------|-0-------0-----0-|
D:---------0-------0---|---0-0-0---------4p0-|---------0-----0-|
A:---------------------|---------------------|---------2-----2-|
E:---------------------|---------------------|---------3-----3-|


                                     D
   +   +   +       +         +       +   +   +     +   +   +   +
e:---3---------------------|-----------------2---|-----------------|
B:---3---------------------|-----------------3---|-----------------|
G:---0-----0h2p0---------0-|-4p2p0-----------2---|-----------------|
D:---0-------------4-------|---------0-------0---|-------0-2---0-2-|
A:---2---------------------|---------------------|---0-2-----2-----|
E:---3-3-------------------|---------------------|-----------------|


   G                                                D
   +   +   +    +     +   +   +       +     +       +   +   +
e:---------3----3-3-|---3-3-3-------------|-----------------2---|
B:---------3----3-3-|---3-3-3-------------|-----------------3---|
G:---------0----0-0-|---0-0-0-0h2p0-----0-|-4p2p0-----------2---|
D:-0-------0----0-0-|---0-0-0---------4---|---------0-------0---|
A:---------2----2-2-|---2-2---------------|---------------------|
E:---------3----3-3-|---3-3---------------|---------------------|


                                 Cadd9             G/B
   +       +       +       +     +   +   +   +     +   +   +   +
e:-------2-2-------------------|---------3---3-3-|---------3---3-3-|
B:-------3-3-------------------|---------3---3-3-|-----3---3---3-3-|
G:-------2-2-------0h2p0-------|---------0---0-0-|-----0---0---0-0-|
D:-------0-0---------------4p0-|---------2---2-2-|-----0---0---0-0-|
A:-----------------------------|-3-------3---3-3-|-2-------2-------|
E:-----------------------------|-----------------|-----------------|


   Bb                                    C
   +   +   +   +     +   +   +   +     +   +   +   +     +   +   +       +
e:-----------------|-----------------|-----------------|---------------------|
B:---------3---3---|---3---3-3-3-3-3-|-3/5-5-5-5---5---|---5-5---------------|
G:-3-----3-3---3---|---3---3-3-3-3-3-|-3/5-5-5-5---5---|---5-5---0h2p0-------|
D:-3-----3-3---3---|---3---3-3-3-3-3-|-3/5-5-5-5---5---|---5-5-----------4p0-|
A:-1-----1-1---1---|---1---1-1-1-1-1-|-1/3-3-3-3---3---|---3-3---------------|
E:-----------------|-----------------|-----------------|---------------------|


   G
   +   +   +   +     +   +   +       +
e:---------3-----3-|---3-3-------------------|
B:---------3-----3-|---3-3-------------------|
G:-0-------0-----0-|---0-0---0h2p0---------0-|
D:---------0-----0-|---0-0-----------4-------|
A:---------2-----2-|---2-2-------------------|
E:---------3-----3-|---3-3-------------------|


           D                                   G
   +       +   +   +     +   +   +       +     +   +   +   +
e:-----------------2---|---2-2-2-------------|---------3-----3-|
B:-----------------3---|---3-3-3-------------|---------3-----3-|
G:-4p2p0-----------2---|---2-2-2-0h2p0-------|-0-------0-----0-|
D:---------0-------0---|---0-0-0---------4p0-|---------0-----0-|
A:---------------------|---------------------|---------2-----2-|
E:---------------------|---------------------|---------3-----3-|


                                 D
   +   +   +       +     +       +   +   +     +   +   +   +
e:---3-----------------|-----------------2---|-----------------|
B:---3-----------------|-----------------3---|-----------------|
G:---0-----0h2p0-----0-|-4p2p0-----------2---|-----------------|
D:---0-------------4---|---------0-------0---|-------0-2---0-2-|
A:---2-----------------|---------------------|---0-2-----2-----|
E:---3-3---------------|---------------------|-----------------|


   G                                                D
   +   +   +    +     +   +   +       +     +       +   +   +
e:---------3----3-3-|---3-3-3-------------|-----------------2---|
B:---------3----3-3-|---3-3-3-------------|-----------------3---|
G:---------0----0-0-|---0-0-0-0h2p0-----0-|-4p2p0-----------2---|
D:-0-------0----0-0-|---0-0-0---------4---|---------0-------0---|
A:---------2----2-2-|---2-2---------------|---------------------|
E:---------3----3-3-|---3-3---------------|---------------------|


                                 Cadd9         G/B   G
   +       +       +       +     +   +   +   +     +   +   +   +
e:-------2-2-------------------|-----------------|-----------------|
B:-------3-3-------------------|---------3-----3-|-----------------|
G:-------2-2-------0h2p0-------|---------0-----0-|-----------------|
D:-------0-0---------------4p0-|---------2-----0-|---------------0-|
A:-----------------------------|-3-------3-----2-|-----------0-2---|
E:-----------------------------|-----------------|---3---3---------|


   D                   G               D                   G
   +   +   +   +     +   +   +   +     +   +   +   +     +   +   +   +
e:---------2-----0-|-----------------|---------2-----0-|-----------------|
B:---------3-----3-|-----------------|---------3-----3-|-----------------|
G:---------2-----2-|-----------------|---------2-----2-|-----------------|
D:-2p0-----0-----0-|---------------0-|-2p0-----0-----0-|---------------0-|
A:-----------------|-----------0-2---|-----------------|-----------0-2---|
E:-----------------|---3---3---------|-----------------|---3---3---------|


   D                                 hey lady...
   +   +   +   +     +   +   +       +
e:---------2-----2-|-2-------------------|
B:---------3-----3-|-3-------------------|
G:---------2-----2-|-2-------0h2p0-------|
D:-2p0-----0-----0-|-0---------------4p0-|
A:-----------------|---------------------|
E:-----------------|---------------------|


------------------------------------------------------------------------
During the first verse, play the above
figure, with this addition at the end:

                                 so much
     G               D                     A                  G
   +   +   +   +     +   +   +   +     +   +     +    +       +   +   +   +
e:-----------------|---------2-----2-|----/9--9----9--9--9--|-7---7-7-7---7-7-|
B:-----------------|---------3-----3-|----/10-10---10-10-10-|-8---8-8-8---8-8-|
G:-----------------|---------2-----2-|----/9--9----9--9--9--|-7---7-7-7---7-7-|
D:---------------0-|-2p0-----0-----0-|----/11-11---11-11-11-|-9---9-9-9---9-9-|
A:-----------0-2---|-----------------|----------------------|-----------------|
E:---3---3---------|-----------------|----------------------|-----------------|


     A                     G                 A                     G
   +    +     +    +       +   +   +   +     +    +     +    +       +   +   +   +
e:-7-9--9--9----9--9--9--|-7---7-7-7---7-7-|-7-9--9--9----9--9--9--|-7---7-7-7---7-7-|
B:-8-10-10-10---10-10-10-|-8---8-8-8---8-8-|-8-10-10-10---10-10-10-|-8---8-8-8---8-8-|
G:-7-9--9--9----9--9--9--|-7---7-7-7---7-7-|-7-9--9--9----9--9--9--|-7---7-7-7---7-7-|
D:-9-11-11-11---11-11-11-|-9---9-9-9---9-9-|-9-11-11-11---11-11-11-|-9---9-9-9---9-9-|
A:-----------------------|-----------------|-----------------------|-----------------|
E:-----------------------|-----------------|-----------------------|-----------------|


        A                  G                   D       A
   +    +     +    +       +   +   +   +     +   +   +   +
e:-7-9--9--9----9--9--9--|-7---7-7-7-------|-3-2-----2-0-----|
B:-8-10-10-10---10-10-10-|-8---8-8-8-------|-3-3-----3-2-----|
G:-7-9--9--9----9--9--9--|-7---7-7-7-------|-0-2-----2-2-----|
D:-9-11-11-11---11-11-11-|-9---9-9-9-------|-0-0-----0-2-----|
A:-----------------------|-----------------|-2---------0-----|
E:-----------------------|-----------------|-3---------------|


------------------------------------------------------------------------
Here's the ending (this repeats and fades):

       really ought to know...
     G                       D           G                       D
   +   +   +   +     +   +   +   +     +   +   +   +     +   +   +   +
e:-----------------|---------2-------|-----------------|---------2-------|
B:-----------------|---------3-------|-----------------|---------3-------|
G:-----------------|---------2-------|-----------------|---------2-------|
D:---------------0-|-2p0-----0-------|---------------0-|-2p0-----0-------|
A:-----------0-2---|-----2p0---------|-----------0-2---|-----2p0---------|
E:---3---3---------|-----------------|---3---3---------|-----------------|


------------------------------------------------------------------------
LYRICS:
------------------------------------------------------------------------

play INTRO FIGURE

Hey lady you got the love I need
Oh maybe more than enough
Oh darlin' darlin' darlin' walk a while with me
You've got so much


------------------------------------------------------------------------
Here's the heavy part.  Play these chords:
G                A    G               G D    D A
Many have I loved and many times been bitten
G                 A    G             play high part from addition to verse
Many times I've gazed along the open road

Many times I've lied many times I've listened
Many times I've wondered how much there is to know

Many dreams come true and some have silver linings
I live for my dream and a pocketful of gold

G	D	A	E


------------------------------------------------------------------------
GUITAR SOLO
G	D	A	E
G	D	A	E
F#m  (rest of solo: 24 measures)

acoustic guitar tacets, then plays high part again.


------------------------------------------------------------------------

Mellow is the man that knows what he's been missing
Many many men can see the open road

Many is the word that only leaves you guessing
Guessing 'bout a thing you really ought to know
You really ought to know




------------------------------------------------------------------------
CHORDS:
------------------------------------------------------------------------

G	320033
Cadd9	x32033
G/B	x20033
Bb	x13331
C	x35553

To learn why these chords are named this way, check out Dansm's Guitar Chord Theory.



------------------------------------------------------------------------
Created on 9-21-97 by Daniel E. Smith.

*****************************************************************************************

The above is solely MY INTERPRETATION of this great song, in a format aimed at learning guitarists.
No attempt has been made to copy or reproduce the artist's or publisher's sheet music for the song, 
if such exists.

It can be used for INFORMATIONAL PURPOSES ONLY. To play the song as it should be played, you should 
purchase the official sheetmusic for the song. You should also purchase and listen to the song to learn 
the rhythm and timing of the song - this is essential if you wish to play the song with any degree of accuracy

*****************************************************************************************







 
Author statistics
 
 

 

   

Recommend on Twitter                

Share on Facebook