PJs Guitar Chords and Lyrics - ONE WAY OR ANOTHER BLONDIE Guitar Song Chords

/
|  Guitar Chords Home Page >  Blondie Guitar Song Chords |

ONE WAY OR ANOTHER BLONDIE Guitar Chords    

ONE WAY OR ANOTHER             BLONDIE

Key is D.
Guitar Riff for Intro & Verse:
   D
e||------------------|------------------|----------------|-----------------|
B||------------------|------------------|----------------|-----------------|
G||------7---x-7---7-|-----7---x-7----7-|----7---x-7---7-|-----7-----------|
D||-(7)--7---x-7---7-|-----7---x-7----7-|----7---x-7---7-|-----7-7-7-6-5-4-|
A||--5---5---x-5---5-|-----5---x-5----5-|----5---x-5---5-|-----5-5-5-4-3-2-|
E||------------------|------------------|----------------|-----------------|

  B5
e|-----------------|-----------------|-----------------|-----------------||
B|-----------------|-----------------|-----------------|-----------------||
G|-----4---x-4---4-|-----4---x-4---4-|-----4---x-4---4-|-----4-----------||
D|-4---4---x-4---4-|-----4---x-4---4-|-----4---x-4---4-|-----4---4-4-5-6-||
A|-2---2---x-2---2-|-----2---x-2---2-|-----2---x-2---2-|-----2---2-2-3-4-||
E|-----------------|-----------------|-----------------|-----------------||
Guitar Line Played Over Chorus:

  G          B5       C3        B5    A    F#m
e|---------|--------|-------------------|-------|
B|---------|--------|-------------------|-------|
G|---------|-4~-----|-4/6-----4-----2---|-------| 
D|--5~-----|--------|-------------------|-4~----|
A|---------|--------|-------------------|-------|
E|---------|--------|-------------------|-------|

  G          B5       C3        B5    A    F#m
e|---------|--------|-------------------|-------|
B|---------|--------|-------------------|-------|
G|---------|-4~-----|-4/6-----4-----2---|-------| 
D|--5~-----|--------|-------------------|-4~----|
A|---------|--------|-------------------|-------|
E|---------|--------|-------------------|-------|

  G       A     B5   Em       F#                       
e|-----------------|-------|--------|--------|
B|-----------------|-------|--------|--------|
G|-------2-----4---|-------|--------|--------|
D|-5---------------|-2~----|-4~-----|--------|
A|-----------------|-------|--------|--------|
E|-----------------|-------|--------|--------|

Guitar Solo:
  F#m                 F#m                A                   C#m
e|--5-----4---0-----|-4h5---4---0-----|-4h5---4---0------|-----------0-----|
B|------------------|-----------------|---------------2~-|(2)~-------------|
G|------------------|-----------------|------------------|-----------------|
D|------------------|-----------------|------------------|-----------------|
A|------------------|-----------------|------------------|-----------------|
E|------------------|-----------------|------------------|-----------------|

  F#m                 F#m                A                   C#m
e|-4h5---4---0------|-4h5---4---0-----|-4h5---4---0------|-----------0-----|
B|------------------|-----------------|---------------2~-|(2)~-------------|
G|------------------|-----------------|------------------|-----------------|
D|------------------|-----------------|------------------|-----------------|
A|------------------|-----------------|------------------|-----------------|
E|------------------|-----------------|------------------|-----------------|

  Bm7                 E                  F#m                 F#m
e|-5-5-5-4-------4--|(4)--------------|-5-5-5-4-------4--/-5-------4---4---|
B|-7-7-7-5---5---5--|(5)----------5-7-|-7-7-7-5---5---6--/-7-------5---5---|
G|-----------6------|-----------6-----|-----------6------|-----------6-----|
D|------------------|-----------------|------------------|-----------------|
A|------------------|-----------------|------------------|-----------------|
E|------------------|-----------------|------------------|-----------------|

   A                        A                      B5
   ^     ^     ^   ^       ^     ^   ^     ^     ^     ^     ^   ^
e|-4/5-5-5-4/5-5-5-4/5-5-|-5-4/5-5-5-4/5-5-5---|-5/7-7-7-5/7-7-7-5/7-7-|
B|-4/5-5-5-4/5-5-5-4/5-5-|-5-4/5-5-5-4/5-5-5---|-5/7-7-7-5/7-7-7-5/7-7-|
G|-----------------------|---------------------|-----------------------|
D|-----------------------|---------------------|-----------------------|
A|-----------------------|---------------------|-----------------------|
E|-----------------------|---------------------|-----------------------|

  B5                   
   ^     ^   ^   ^
e|-7-5/7-7-7-7-8-9-10-|
B|-7-5/7-7-7-7-8-9-10-|
G|--------------------|
D|--------------------|
A|--------------------|
E|--------------------|
Outro:
   D                   D                B5                 B5
e||------------------|---------------|-----------------|-----------------||
B||------------------|---------------|-----------------|-----------------||
G||--7-------7-------|-7-------7-----|-4-------4-------|-4-------4-------||
D||--7-------7-------|-7-------7-----|-4-------4-------|-4-------4-------||
A||--5-------5-------|-5-------5-----|-2-------2-------|-2-------2-------||
E||------5-------5---|-----5-------5-|-----2-------2---|-----2-------2---||

One Way or Another
by D. Harry/N. Harrison
Intro
|D     |D     |D     |D     |
|B5    |B5    |B5    |B5    |
|D     |D     |D     |D     |
|B5    |B5    |B5    |B5    |
Verse 1
|D          |D                |D
 One way or another, I'm gonna find you,
          |D
 I'm gonna get you, get you, get you, get you.
|B5         |B5               |B5
 One way or another, I'm gonna win you, 
          |B5
 I'm gonna get you, get you, get you, get you.
|D          |D                |D
 One way or another, I'm gonna see you, 
         |D
I'm gonna meet you, meet you, meet you, meet you.
|B5            |B5                  |B5
 One day, maybe next week, I'm gonna meet you,
          |B5
 I'm gonna meet you, I'll meet you.

|G|B5  |C#    B5   A   |F#m
 I will drive past your house,
|G  |B5    |C#     B5  A  |F#m
 And if the lights are all down,
     |G   A    B5|Em   |F#m   |F#m   
 I'll see who's around.....
Verse 2
|D          |D                |D
 One way or another, I'm gonna find you,
          |D
 I'm gonna get you, get you, get you, get you.
|B5         |B5               |B5
 One way or another, I'm gonna win you,
          |B5
 I'm gonna get you, get you, get you, get you.
|D          |D                |D
 One way or another, I'm gonna see you,
          |D
 I'm gonna meetcha, meetcha, meetcha, meetcha.
|B5            |B5                  |B5
 One day, maybe next week, I'm gonna meetcha,
     |B5
 I'll meet you, ah....


|G  |B5    |C#     B5  A  |F#m
 And if the lights are all out,
|G   |B5    |C#   B5  A  |F#m
 I'll follow your bus downtown,
    |G     A   B5 |Em   |F#m   |F#m   
 See who's hanging out.....
Break
|drum |drum |
|F#m  |F#m  |A    |C#m  |
|F#m  |F#m  |A    |C#m  |
|Bm7  |E    |F#m  |F#m  |
|A    |A    |B5   |B5   |

Verse 3
|D          |D                |D
 One way or another, I'm gonna lose you,
          |D
 I'm gonna give you the slip.
  |B5                |B5                |B5
 A slip of the lip or another, I'm gonna lose you,
         |B5
I'm gonna trick you, I'll trick you.
|D          |D                |D
 One way or another, I'm gonna lose you,
          |D
 I'm gonna trick you, trick you, trick you, trick you.
|B5         |B5               |B5
 One way or another, I'm gonna lose you,
          |B5
 I'm gonna give you the slip!!
Bridge
|D    |D    |B5   |B5   |

|D         D             |D          D
 I'll walk down the mall, stand over by the wall,
|B5          B5         |B5       B5
 Where I can see it all, find out who you call
|D        D     |D           D
 Lead you to the supermarket check out some,
|B5           B5       |B5       B5
 Specials and rat food, get lost in the crowd.
Outro
|D          |D                |B5
 One way or another, I'm gonna get you,
    |B5
I'll get you, I'll get you, get you, get you, get you....!!!
(Where I can see it all, find out who you call) 

[repeat outro & fade]


*****************************************************************************************

The above is solely MY INTERPRETATION of this great song, in a format aimed at learning guitarists.
No attempt has been made to copy or reproduce the artist's or publisher's sheet music for the song, 
if such exists.

It can be used for INFORMATIONAL PURPOSES ONLY. To play the song as it should be played, you should 
purchase the official sheetmusic for the song. You should also purchase and listen to the song to learn 
the rhythm and timing of the song - this is essential if you wish to play the song with any degree of accuracy

*****************************************************************************************







Author statistics    

Recommend on Twitter                

Share on Facebook