PJs Guitar Chords and Lyrics - WON'T GET FOOLED AGAIN THE WHO Guitar Song Chords

/
|  Guitar Chords Home Page >  The Who Guitar Song Chords |

WON'T GET FOOLED AGAIN THE WHO Guitar Chords    

WON'T GET FOOLED AGAIN			THE WHO

==============
transcribed by
litgo@aol.com
==============

A      x022xx
A5     x02255
(G)    3xxxxx
(C)    x3xxxx
G     (3)x0033
G/D    xx0433
D7     xx0535
E      022400
E7     020100
E6     042200
E7ii   050400
D*     acoustic only

|| A     |     |...

(G)| A   |    (G)|A    |     (G)|A   A   A |       |     |     D*

         A                       D* 
We'll be fighting in the streets
         A                     G  D*
With our children at our feet
        A                       D*   (G^)E         C  G G
And the morals that they worship will be gone
        A                      D* 
And the men who spurred us on 
       A                       D*
Sit in judgement of all wrong
       A                   D*    (G^) E      C G G
They decide and the shotgun sings the song

[chorus]
     D      A          D         A
I'll tip my hat to the new constitution
D      A           D       A
Take a bow for the new revolution
D         A           D          A
Smile and grin at the change all around
G                     E7   E6  E7
Pick up my guitar and play
G               E7   E6  E7
Just like yesterday
          G                   D     Dsus4 | D  (C^)| D 
Then I'll get on my knees and pray
                     A     | G D | A    | G  D |
We don't get fooled again

                               2
||: A A5 G A A5 G  | A5 G  D :||
||----5------5-----|-5--------||
||----5-0----5-0---|-5-0-2-3--||
||----2-0----2-0---|-2-0-2-2--||
||--2------2-----2-|-------4--||
||--0------0-------|----------||
||-----------------|----------||

The change, it had to come
We knew it all along
We were liberated from the fold, that's all
And the world looks just the same
And history ain't changed
'Cause the banners, they all flown in the last war

[repeat chorus]
     D      A          D         A
I'll tip my hat to the new constitution
D      A           D       A
Take a bow for the new revolution
D         A           D          A
Smile and grin at the change all around
G                     E7   E6  E7
Pick up my guitar and play
G               E7   E6  E7
Just like yesterday
          G                   D     G/D | D  G/D | D7 
Then I'll get on my knees and pray
                     A     |   G D | A    | G  D |
We don't get fooled again  no,no

                             4
||: A A (G) A | A (G)  D D :||
||------------|--------2-2--||
||------------|--------3-3--||
||--2-2-----2-|-2------2-2--||
||--2-2-----2-|-2------0-0--||
||--0-0-----0-|-0-----------||
||-------3----|----3-0------||

                                     3
||: A A5 G A5 G A|    D....         :||
||----5----5-----|-------------------||
||----5-0--5-0---|----3-3-3-3-3-3-3--||
||----2-0--2-0---|-2--2-2-2-2-2-2-2--||
||--------2---2--|-2--4-4-4-4-4-4-4--||
||--0----------0-|-------------------||
||---------------|-------------------||


| A  A5 G A5 G A |  D     |

     B     (Bsus4*)     B      (Bsus4*)
I'll move myself and my family aside
E     E6           E7ii      E6
If we happen to be left half alive
     A
I'll get all my papers and smile at the sky
         B                        B7        B     
Though I know that the hypnotized never lie

       Do ya? (third time)
||: B B | A  E   :||

          Yeah! (third time)
||: A   | G D    :||

There's nothing in the street looks any different to me
And the slogans are replaced by-the-by
And the parting on the left is now parting on the right
And the beards have all grown longer overnight

[repeat chorus]
                  4
||: A     | D    :||

||: A A5 G A5 G A|    D....         :|| A....
||----5----5-----|-------------------||
||----5-0--5-0---|----3-3-3-3-3-3-3--||
||----2-0--2-0---|-2--2-2-2-2-2-2-2--||
||--------2---2--|-2--4-4-4-4-4-4-4--||
||--0----------0-|-------------------||
||---------------|-------------------||

[synth break]

A       | G   D   | A      | G   D |
Yeah!

A               | G   D  |
Meet the new boss
A                  | G   D  |
Same as the old boss

                         4
||: A   A5  | A5   G D  :||

                               2
||: A A5 G        |       D/A :||
||----5-----5-----|-5----------||
||----5-0---5-0---|-5-0-2-3----||
||----2-0---2-0---|-2-0-2-2----||
||--2-----2-----2-|-------4----||
||--0-----0-------|------------||
||----------------|------------||


| A5    A5  | A5   A5      | A      | A5
|-5---------|-5------------|--------|-5-
|-5---------|-5----2-------|--------|-5-
|-2-----2---|-2----2-------|-2------|-2-
|-2-----2---|-2----2---2/2/|-2------|-2-
|-0-----0---|-0----0---0/0/|-0------|-0-
|-----------|--------------|--------|---

=============
litgo@aol.com



*****************************************************************************************

The above is solely MY INTERPRETATION of this great song, in a format aimed at learning guitarists.
No attempt has been made to copy or reproduce the artist's or publisher's sheet music for the song, 
if such exists.

It can be used for INFORMATIONAL PURPOSES ONLY. To play the song as it should be played, you should 
purchase the official sheetmusic for the song. You should also purchase and listen to the song to learn 
the rhythm and timing of the song - this is essential if you wish to play the song with any degree of accuracy

*****************************************************************************************







Author statistics    

Recommend on Twitter                

Share on Facebook